Регистрация Поиск Поиск по Сызрани FAQ Пользователи Группы Вход  








Ответить на тему ===ГИТАРА - табы===
На страницу Пред.  1, 2, 3, 4
Re: ===ГИТАРА - табы===
Упражнение очень рекомендует соло-гитарист группы "MetallicA", говорит, что играет его каждый день в качестве разминки для пальцев:

e:-8-7-6-5-----------------------------------------
H:---------8-7-6-5---------------------------------
G:-----------------8-7-6-5-------------------------
D:-------------------------8-7-6-5-----------------
A:---------------------------------8-7-6-5---------
E:-----------------------------------------8-7-6-5-

Затем попробуйте сыграть в одну и другую сторону по очереди, затем комбинацию на каждой струне(-8-7-6-5-) по два раза вверх. И вниз... И вверх... И вниз...
Постоянный участник
Постоянный участник
Зарегистрирован: 25.10.2002
Сообщений: 193
Откуда: Syzran
Посмотреть профильНайти все сообщения пользователя _Diesel_
Re: ===ГИТАРА - табы===
Аааааа... как раз для пальчиков следующее упражнение соло-гитариста группы "MetallicA" Кирка Хеммета.

e:-----------------------8-----7---6-5-
H:---------------8-----7-----6---5-----
G:-------8-----7-----6-----5-----------
D:-----7-----6-----5-------------------
A:---6-----5---------------------------
E:-5-----------------------------------

И назад, повторяя последнюю ноту два раза...

PS: у кого есть че то в этом роде?..... кидайте сюда.... -Cool
Постоянный участник
Постоянный участник
Зарегистрирован: 25.10.2002
Сообщений: 193
Откуда: Syzran
Посмотреть профильНайти все сообщения пользователя _Diesel_
Re: ===ГИТАРА - табы===
Www
Intro: Cm G


Cm Fm
Когда переехал - не помню,
G Cm
Наверное, был я бухой.
Мой адрес не дом и не улица,
Мой адрес сегодня такой:


Cm G
ВЭ-ВЭ-ВЭ ЛЕНИНГРАД ЭС-ПЭ-БЭ ТОЧКАРУ


Когда тормозит меня мусор,
Прописки, мол, нет никакой,
То я отвечаю спокойно:
"Мой адрес сегодня такой:


ВЭ-ВЭ-ВЭ ЛЕНИНГРАД ЭС-ПЭ-БЭ ТОЧКАРУ


Когда напиваюсь я пьяный,
Тогда я мотор торможу:
"Давай, шеф, поехали к дому,
Дорогу сейчас покажу".


ВЭ-ВЭ-ВЭ ЛЕНИНГРАД ЭС-ПЭ-БЭ ТОЧКАРУ


Даёшь интернет, блядь:. -Wink))


Solo:
Cm G
4|---------3-3--1--------------------
5|--3-3-3------------------6-6--5----
6|------------------3-3-3------------
IvanSyzran
Предупреждений : 2
<font color=#990000>Гражданин форума</font>
Гражданин форума
Зарегистрирован: 06.01.2003
Сообщений: 6967
Посмотреть профильНайти все сообщения пользователя IvanSyzran
Re: ===ГИТАРА - табы===
Aria - Zakat
Intro:
e|-----4-2-0h2p0-----------|---4-2-0h2p0---------------|
B|---0-----------4-2--2--0-|--0----------4-2--0--2-2-4-|
G|-1-----------------------|-1-------------------------|
D|-------------------------|---------------------------|
A|--------------------0--2-|---------------------0-0-2-|
E|-----0-------------------|---0-----------------------|

e|-0-----0-2-----0-4-----2-0h2p0-----------0--------0--|
B|---2-------4-------0-----------4-2-0--2--------4-----|
G|-----2-------4-------1-------------------------------|
D|-----------------------------------------------------|
A|-0-------2----------------------------0-----2--------|
E|-----------------0--------------------------------0--|

e|-----4-2-0h2p0-----------|---4-2-0h2p0---------------|
B|---0-----------4-2--2--0-|--0----------4-2--0--2-2-4-|
G|-1-----------------------|-1-------------------------|
D|-------------------------|---------------------------|
A|--------------------0--2-|---------------------0-0-2-|
E|-----0-------------------|---0-----------------------|

e|-0-----0-2-----0-4-----2-0-----------0--------|
B|---2-------4-------0-------4-2-0--2------0--4-|
G|-----2-------4-------1------------------0-----|
D|---------------------------------------2------|
A|-0-------2------------------------0------2----|
E|-----------------0----------------------------|
-Cool -Cool -Cool
Постоянный участник
Постоянный участник
Зарегистрирован: 25.10.2002
Сообщений: 193
Откуда: Syzran
Посмотреть профильНайти все сообщения пользователя _Diesel_
Re: ===ГИТАРА - табы===
Blackmore's Night - Memmingen

E:-0-2-3---2h3p2-0-----0-------------------------
H:-------0---------3---1-1-1-p0-----0------------
G:-------------------0-0-2------2-0---2-p0-2-----
R:---------------------2-2-----------------------
A:-----------------2---3-0-----------------------
E:--------------------------------0--------2-----

E:-0-2-3---2h3p2-0-----0-------------------------
H:-------0---------3---1-1-1-p0------------------
G:-------------------0-0-2------2-0-2-1----------
R:---------------------2----------------2--------
A:-----------------2---3-0-----------------------
E:--------------------------------0-2------------

E:-----------------------------------0--1-p0---------0-------------------------------
H:-1---3-1-0---1-0---------0-h1-p0-3-1-------3-1-0-------1-----------0-h1-0----------
G:-2---------------2-2-0-------------0-----------------4-2-4-p2-p0-2--------2-p1-2---
R:-----------------------2-----------2--0----------------------------------------2---
A:-0-----------------------0-------2-3-------------------0-----------------------0---
E:---3-2---3-1-0---1-0-0-------------------------3-1-4-------------1------0----------

E:-0-2-3---2h3p2-0-----0--------------------------
H:-------0---------3---1-1-1-p0-----0-------------
G:-------------------0-0-2------2-0---2-p0-2------
R:---------------------2-2------------------------
A:-----------------2---3-0------------------------
E:--------------------------------0--------2------

E:-0-2-3---2h3p2-0-----0---3-2h3p2-0------0-------
H:-------0---------3---1s8-----------4-s7-0-------
G:-------------------0-0------------------1-------
R:---------------------2---2--------------2-------
A:-----------------2---3-------------2----2-------
E:----------------------------------------0-------
-Cool -Cool -Cool
Постоянный участник
Постоянный участник
Зарегистрирован: 25.10.2002
Сообщений: 193
Откуда: Syzran
Посмотреть профильНайти все сообщения пользователя _Diesel_
Re: ===ГИТАРА - табы===
Blackmore's Night - Play Minstrel Play
Intro:
e|------0-5-7-8-7-5-0----1-3-5-0------1-0-----------0-----------
h|----------------------3------------3----3-1-0-1-3---3-1-0-----
g|---2-----------------2------------2-----------------------2--- x2
d|--2-----------------0------------0----------------------------
a|-0---------------------------0----------------------------0---
E|--------------------------------------------0-----0-----------
Vers:
e|-----------------------0------------------------------------
h|---0-1-3-1-0-----0-1-3---3-0-1-0------0-1-0---1-0-----------
g|-2-----------2-2-----------------2--2-------2-----2-2-0-0---
d|--------------------------------------------------2-2-0-0---
a|-0-----------0---------------0------0-------0-----0-----2---
E|------------------------------------------------------------

e|-----------------------0------------------------------------
h|---0-1-3-1-0-----0-1-3---3-0-1-0------0-1-0---1-0-----------
g|-2-----------2-2-----------------2--2-------2-----2-2-0-0---
d|--------------------------------------------------2-2-0-0---
a|-0-----------0---------------0------0-------0-----0-----2---
E|------------------------------------------------------------
R:
e|-----0-0---0-1-0---0------3-1-0------------------0-0---0-1-0------------------
h|----1----3---------------0------3----1-0--------1----3-------3-1----0-1-0-----
g|---0--------------------0-----------2----2-----0-------------------0------2---
d|--2--------------------0-----------2----------2-------------------0-------2---
a|-3--------------------2-----------0----------3----------------------------0---
E|---------------------3--------------------------------------------------------

e|-----0-0---0-1-0---0------3-1-0--------------0-------0-0---0-1-0-------------------
h|----1----3---------------0------3-1-0----1-3--------1----3-------3-1-----0-1-0-----
g|---0--------------------0---------------2----------0--------------------0------2---
d|--2--------------------0---------------2----------2--------------------0-------2---
a|-3--------------------2---------------0----------3--------------------2--------0---
E|---------------------3-----------------------------------------------3-------------
-Cool -Cool -Cool
Постоянный участник
Постоянный участник
Зарегистрирован: 25.10.2002
Сообщений: 193
Откуда: Syzran
Посмотреть профильНайти все сообщения пользователя _Diesel_
Re: ===ГИТАРА - табы===
System Of A Down / Aerials

Tuning: D A F C G C

(Guitar)

Solo
1| ---------------------------------------| -
2| ------3------3------3------3------3----| -
3| ---2------2------2------2------2----2--| -
4| ---------------------------------------| - 8 раз
5| ---------------------------------------| -
6| -5------5------5------5------5---------| -

(Bass)

Solo

1| -----------------------------------------------------------------------------------|
2| -----------------------------------------------------------------------------------|
3| -----------------------------------------------------------------------------------|

4| --------------------------5------------------------5--7--8--7-5--------------------|
5| ----8--7--5--5--5-----------8--7--7--7----------8--------------------8--7--5--5--5-|
6| -0----------------------0---------------------0-------------------0----------------|

1| ---------------------------------------------------------------------------------|
2| -------------------------------------------------------8-------------------------|
3| ----7--5----------------9---------------------7--9--10----10-9----7--8--7--7--7--|
4| -----------7--7--7---------10--7--7--7-------------------------------------------|
5| ---------------------------------------------------------------------------------|
6| -0--------------------0---------------------0-------------------0----------------|

Припев
1|
------------------------|-----------------------------------------------------------------|

2|
------------------------|-----------------------------------------------------------------|
3|
------------------------|-------------12--------------10---------------9--------------7---|

4|
-8--8--8--8--8--8--8--8-|--0-0-0-0----------0-0-0-0---------0-0-0-0---------0-0-0-0-------|

5|
-8--8--8--8--8--8--8--8-|--0-0-0-0----10----0-0-0-0----8----0-0-0-0----7----0-0-0-0---5---|
6|
-8--8--8--8--8--8--8--8-|--0-0-0-0----------0-0-0-0---------0-0-0-0---------0-0-0-0-------|


Припев
1|
------------------------|-----------------------------------------------------------------|

2|
------------------------|-----------------------------------------------------------------|
3|
------------------------|-------------12--------------10---------------9--------------7---|

4|
-8--8--8--8--8--8--8--8-|--0-0-0-0----------0-0-0-0---------0-0-0-0---------0-0-0-0-------|

5|
-8--8--8--8--8--8--8--8-|--0-0-0-0----10----0-0-0-0----8----0-0-0-0----7----0-0-0-0---5---|
6|
-8--8--8--8--8--8--8--8-|--0-0-0-0----------0-0-0-0---------0-0-0-0---------0-0-0-0-------|


Припев
1|
------------------------|-----------------------------------------------------------------|

2|
------------------------|-----------------------------------------------------------------|
3|
------------------------|-------------12--------------10---------------9--------------7---|

4|
-8--8--8--8--8--8--8--8-|--0-0-0-0----------0-0-0-0---------0-0-0-0---------0-0-0-0-------|

5|
-8--8--8--8--8--8--8--8-|--0-0-0-0----10----0-0-0-0----8----0-0-0-0----7----0-0-0-0---5---|
6|
-8--8--8--8--8--8--8--8-|--0-0-0-0----------0-0-0-0---------0-0-0-0---------0-0-0-0-------|


1| ------------------------|
2| ------------------------|
3| ------------------------|
4| -8--8--8--8--8--8--8--8-|
5| -8--8--8--8--8--8--8--8-|
6| -8--8--8--8--8--8--8--8-|

Solo - 8 раз
Припев, но заканчивается вот так


1|-----------------------------------------------------------------------|
2| --------------------------------------------------------10--11-10-11--|
3| ------------------------------------------9--10---9-10---9--10--9-10--|
4| -8--8--8--8--8--8--8--8--7-7-7-7-7-7-7-7--7---7---7--7---7--7---7--7--|
5| -8--8--8--8--8--8--8--8--7-7-7-7-7-7-7-7--7---7---7--7---7--7---7--7--|
6| -8--8--8--8--8--8--8--8--7-7-7-7-7-7-7-7--7---7---7--7---7--7---7--7--|

_________________

1| -----------------------------------------------------------------------------------|
2| -----------------------------------------------------------------------------------|
3| -10---9---7\------12---10---9\------10---12---14---15---14-12---10---9----7\-------|
4| -----------------------------------------------------------------------------------|
5| -8----7---5\------10----8---7\------8----10---12---13---12-10----8---7----5\-------|
6| -----------------------------------------------------------------------------------|

1| -----------------------------------------------------------------------------------|
2| -----------------------------------------------------------------------------------|
3| -10---9---7\------12---10---9\------10---12---14---15---14-12---10---9----7\-------|
4| -----------------------------------------------------------------------------------|
5| -8----7---5\------10----8---7\------8----10---12---13---12-10----8---7----5\-------|
6| -----------------------------------------------------------------------------------|

1| -----------------------------------------------------------------------------------|
2| -----------------------------------------------------------------------------------|
3| -10---9---7\------12---10---9\------10---12---14---15---14-12---10---9----7\-------|
4| -----------------------------------------------------------------------------------|
5| -8----7---5\------10----8---7\------8----10---12---13---12-10----8---7----5\-------|
6| -----------------------------------------------------------------------------------|

1| ---------------------------------------| -
2| ------3------3------3------3------3----| -
3| ---2------2------2------2------2----2--| -
4| ---------------------------------------| - 16 раз
5| ---------------------------------------| -
6| -5------5------5------5------5---------| -


Life is a waterfall,
We&acute;re one in the river,
And one again after the fall.

Swimming through the void
We hear the word,
We lost ourselves,
But we find it all?

Cause we are the ones that want to play,
Always want to go,
But you never want to stay,

And we are the ones that want to chose,
Always want to play,
But you never want to lose.

Aerials, in the sky,
When you lose small mind,
You free your life.

Life is a waterfall,
We drink from the river,
Then we turn around and put up our walls.

Swimming through the void
We hear the word,
We lost ourselves,
But we find it all?

Cause we are the ones that want to play,
Always want to go,
But you never want to stay,

And we are the ones that want to chose,
Always want to play,
But you never want to lose.

Aerials, in the sky,
When you lose small mind,
You free your life.
Aerials, so up high,
When you free your eyes,
Eternal prize.
Aerials, in the sky,
When you lose small mind,
You free your life.
Aerials, so up high,
When you free your eyes,
Eternal prize.
Постоянный участник
Постоянный участник
Зарегистрирован: 07.03.2002
Сообщений: 140
Откуда: РОССИЯ
Посмотреть профильНайти все сообщения пользователя Lexer
===ГИТАРА - табы===
Вы не можете начинать темы
Вы не можете отвечать на сообщения
Вы не можете редактировать свои сообщения
Вы не можете удалять свои сообщения
Вы не можете голосовать в опросах
Часовой пояс: GMT + 4  
Страница 4 из 4  
  
  
 Ответить на тему  
Мобильная версия

Powered by phpBB © phpBB Group
Design by phpBBStyles.com | Styles Database.
Content © Завалинка
Яндекс цитирования